Last active: Never
Not logged in [Login - ]
go to bottom


Printable version | Send to friend | Subscribe | Add to Favourites
<<  1    2    3    4  >>
Post a new topic Post a new poll Post a reply
Author: Subject: Tab request
tremendous
Administrator






Posts: 2366
Registered: 15-4-03
Location: Vancouver, BC
Member is offline

Currently listening to: Cigar Box Melody EP

posted on 25-4-06 at 01:50 Reply with quotation
sorry mate but it's not high on my to do list. i found after a while trying it that it wasn't as easy as i thought and will wait until i've got a starting point from mr schembri. however, i'm busy these days with a lot of other stuff.






View user's profile Email user Visit user's homepage View all posts by user PM member
armour_guitarist
Oh Dear






Posts: 3261
Registered: 10-9-03
Location: Brooklyn
Member is offline

Currently listening to: New Livid?!? Wha??????

posted on 25-4-06 at 03:03 Reply with quotation
this is going to be an insane month for me, but when it's over, i'll give it another shot. but it really isn't as simple as it sounds.





Some things take more than a lifetime.

View user's profile View all posts by user PM member This user has MSN messenger
Livid
Senior Member






Posts: 431
Registered: 24-2-05
Location: Aberdeen, Washington
Member is offline

Currently listening to: Eclectic Approach

posted on 25-4-06 at 03:25 Reply with quotation
yeah i understand. its ok tho.. i mean at least you didnt totally blow it off. if its really hard i understand. i need to learn how to tab. but the livid stuff isnt where i would start lol





If KoolAid had a fanclub, I'd be in it

View user's profile View all posts by user PM member AIM status of Livid
XaVieRGizmo
Member






Posts: 45
Registered: 25-4-05
Member is offline

Currently listening to: Halifax, Hawthrone Heights, Dead Poetic

posted on 12-7-06 at 14:24 Reply with quotation
Will there ever be a tab for the rest of the awesome songs? E.g My curse, remembering Never?






View user's profile View all posts by user PM member
SideO_JR
Oh Dear






Posts: 2324
Registered: 25-8-03
Location: Alberta......
Member is offline

Currently listening to:

posted on 12-7-06 at 23:08 Reply with quotation
no





How do you communicate those emotions that are so intense that no physical expression or series of words can even scratch the surface?

View user's profile View all posts by user PM member
SideO_JR
Oh Dear






Posts: 2324
Registered: 25-8-03
Location: Alberta......
Member is offline

Currently listening to:

posted on 13-7-06 at 02:27 Reply with quotation






How do you communicate those emotions that are so intense that no physical expression or series of words can even scratch the surface?

View user's profile View all posts by user PM member
XaVieRGizmo
Member






Posts: 45
Registered: 25-4-05
Member is offline

Currently listening to: Halifax, Hawthrone Heights, Dead Poetic

posted on 13-7-06 at 06:42 Reply with quotation
why not?? grrr, come onnnn
View user's profile View all posts by user PM member
tremendous
Administrator






Posts: 2366
Registered: 15-4-03
Location: Vancouver, BC
Member is offline

Currently listening to: Cigar Box Melody EP

posted on 13-7-06 at 15:59 Reply with quotation
ooh -- my curse: yes and yes.

sorry -- i've been sitting on that for a while. chris had promised we'd do the other new songs too but i guess we both forgot.






View user's profile Email user Visit user's homepage View all posts by user PM member
XaVieRGizmo
Member






Posts: 45
Registered: 25-4-05
Member is offline

Currently listening to: Halifax, Hawthrone Heights, Dead Poetic

posted on 14-7-06 at 15:28 Reply with quotation
Wicked!! i knew you guys are going to do it, its and awesome song. The music lives! Thx bart
Patiently waiting!

View user's profile View all posts by user PM member
nickelback_2202
Recognised Member






Posts: 104
Registered: 17-5-03
Location: Kansas
Member is offline

Currently listening to:

posted on 29-9-06 at 13:23 Reply with quotation
Anybody have the tabs for Foreseen? If so... send them my way. I'd appreciate it.





She spreads her silver wings to offer shade for my pale skin...

View user's profile View all posts by user PM member
thelividfan
Senior Member






Posts: 433
Registered: 7-5-03
Location: Windsor
Member is offline

Currently listening to: Livid EP

posted on 1-11-06 at 20:43 Reply with quotation
true, I might even pay for a tab for Reach, or Forseen
View user's profile Email user View all posts by user PM member This user has MSN messenger
XaVieRGizmo
Member






Posts: 45
Registered: 25-4-05
Member is offline

Currently listening to: Halifax, Hawthrone Heights, Dead Poetic

posted on 11-4-07 at 17:39 Reply with quotation
okay, ive been trying to play most of the other songs that havent been tabbed out, cracking my head open lol.

could someone give the tunings for sick cycle? and pointers for in circles?

Your help is deepyly appreciated.

View user's profile View all posts by user PM member
armour_guitarist
Oh Dear






Posts: 3261
Registered: 10-9-03
Location: Brooklyn
Member is offline

Currently listening to: New Livid?!? Wha??????

posted on 11-4-07 at 23:11 Reply with quotation
code:


Here's the intro to In Circles.

If it doesn't look right, just stretch your screen, or reduce your browser's text size

anyway based on a live video, this is how he plays it with one guitar.
|-----------------|-----------------|---------------------|-------------|
|-----------------|-----------------|---------------------|-------------|
|-----------------|-----------------|-4-4-4-7-7-7-0-0-0-0-|-------------|
|-5-5-5-5-5-5-5-5-|-5-5-5-5-5-5-5-5-|-x-x-x-x-x-x-x-x-x-x-|-2-4-2-2-2-0-|
|-5-5-5-5-5-5-5-5-|-5-5-5-5-7-7-7-7-|-2-2-2-5-5-5-0-0-0-0-|-0-0-0-5-4-0-|
|-5-5-5-5-5-5-5-5-|-5-5-5-5-5-5-5-5-|---------------------|-------------|


|-----------------|-------------------|---------------------|-------------|
|-----------------|-------------------|---------------------|-------------|
|-----------------|-------------------|-4-4-4-7-7-7-0-0-0-0-|-------------|
|-5-5-5-5-5-5-5-5-|-9-9-7-7-5--5--5-5-|-x-x-x-x-x-x-x-x-x-x-|-2-4-2-2-2-0-|
|-5-5-5-5-5-5-5-5-|-5-5-5-5-10-10-9-9-|-2-2-2-5-5-5-0-0-0-0-|-0-0-0-5-4-0-|
|-5-5-5-5-5-5-5-5-|-5-5-5-5-5--5--5-5-|---------------------|-------------|


|-----------------|-----------------|---------------------|-------------|
|-----------------|-----------------|---------------------|-------------|
|-----------------|-----------------|-4-4-4-7-7-7-0-0-0-0-|-------------|
|-5-5-5-5-5-5-5-5-|-9-9-9-9-7-7-7-7-|-x-x-x-x-x-x-x-x-x-x-|-2-4-2-2-2-0-|
|-5-5-5-5-5-5-5-5-|-5-5-5-5-5-5-5-5-|-2-2-2-5-5-5-0-0-0-0-|-0-0-0-5-4-0-|
|-5-5-5-5-5-5-5-5-|-5-5-5-5-5-5-5-5-|---------------------|-------------|


|-----------------|-------------------|---------------------|-------------|
|-----------------|-------------------|---------------------|-------------|
|-----------------|-------------------|-4-4-4-7-7-7-0-0-0-0-|-0-0-0-0-0-0-|
|-5-5-5-5-5-5-5-5-|-9-9-7-7-5--5--5-5-|-x-x-x-x-x-x-x-x-x-x-|-x-x-x-x-x-x-|
|-5-5-5-5-5-5-5-5-|-5-5-5-5-10-10-9-9-|-2-2-2-5-5-5-0-0-0-0-|-0-0-0-0-0-0-|
|-5-5-5-5-5-5-5-5-|-5-5-5-5-5--5--5-5-|---------------------|-------------|

given that, the studio version is probably something like:

guitar 1
|-----------------|-----------------|---------------------|-------------|
|-----------------|-----------------|---------------------|-------------|
|-----------------|-----------------|-4-4-4-7-7-7-0-0-0-0-|-0-0-0-0-0-0-|
|-5-5-5-5-5-5-5-5-|-5-5-5-5-5-5-5-5-|-x-x-x-x-x-x-x-x-x-x-|-x-x-x-x-x-x-|
|-5-5-5-5-5-5-5-5-|-5-5-5-5-5-5-5-5-|-2-2-2-5-5-5-0-0-0-0-|-0-0-0-0-0-0-|
|-5-5-5-5-5-5-5-5-|-5-5-5-5-5-5-5-5-|---------------------|-------------|

guitar 2
|-----------------|-----------------|---------------------|-------------|
|-----------------|-----------------|---------------------|-------------|
|-----------------|-----------------|---------------------|-------------|
|-----------------|-----------------|---------------------|-2-4-2-------|
|-----------------|-5-5-5-5-7-7-7-7-|---------------------|-------5-4-0-|
|-----------------|-----------------|---------------------|-------------|

guitar 1
|-----------------|-----------------|---------------------|-------------|
|-----------------|-----------------|---------------------|-------------|
|-----------------|-----------------|-4-4-4-7-7-7-0-0-0-0-|-0-0-0-0-0-0-|
|-5-5-5-5-5-5-5-5-|-5-5-5-5-5-5-5-5-|-x-x-x-x-x-x-x-x-x-x-|-x-x-x-x-x-x-|
|-5-5-5-5-5-5-5-5-|-5-5-5-5-5-5-5-5-|-2-2-2-5-5-5-0-0-0-0-|-0-0-0-0-0-0-|
|-5-5-5-5-5-5-5-5-|-5-5-5-5-5-5-5-5-|---------------------|-------------|

guitar 2
|-----------------|-----------------|---------------------|-------------|
|-----------------|-----------------|---------------------|-------------|
|-----------------|-----------------|---------------------|-------------|
|-----------------|-----------------|---------------------|-2-4-2-------|
|-----------------|-5-5-7-7-9-9-5-5-|---------------------|-------5-4-0-|
|-----------------|-----------------|---------------------|-------------|

I'm sure the second guitar has some more subtle bits, but that's the just of it.




(bart says: use [ code ] tags for tabs -- it makes it display in a monospace font.)





Some things take more than a lifetime.

View user's profile View all posts by user PM member This user has MSN messenger
XaVieRGizmo
Member






Posts: 45
Registered: 25-4-05
Member is offline

Currently listening to: Halifax, Hawthrone Heights, Dead Poetic

posted on 12-4-07 at 11:46 Reply with quotation
hehe, is that the intro? Sorry ive missed out 1 line saying "the verse" for in circles. Im able to play the intro, just the tunings were hard to figure out.

What chord does chris plays for the verse? I have no idea how he does it.. or maybe im not trying hard enough lol.

Thx for the extra pointers though

View user's profile View all posts by user PM member
armour_guitarist
Oh Dear






Posts: 3261
Registered: 10-9-03
Location: Brooklyn
Member is offline

Currently listening to: New Livid?!? Wha??????

posted on 15-4-07 at 20:15 Reply with quotation
thanks bart.

yeah, i don't know what the verse is, it's tough to pick out just the guitar.





Some things take more than a lifetime.

View user's profile View all posts by user PM member This user has MSN messenger
tremendous
Administrator






Posts: 2366
Registered: 15-4-03
Location: Vancouver, BC
Member is offline

Currently listening to: Cigar Box Melody EP

posted on 6-5-07 at 00:37 Reply with quotation
it's in drop d down a bunch of tones -- same as my curse, the tide, test run etc. fat string b flat.
View user's profile Email user Visit user's homepage View all posts by user PM member
<<  1    2    3    4  >> Post a new topic Post a new poll Post a reply


go to top


Powered by XMB 1.8 Partagium Final SP3
Developed By Aventure Media & The XMB Group 2002
Processed in 0.0164280 seconds, 38 queries